  0
SECTION
  2
HEADER
  9
$ACADVER
  1
AC1009
  0
ENDSEC
  0
SECTION
  2
TABLES
  0
TABLE
  2
LTYPE
 70
2
  0
LTYPE
  2
CONTINUOUS
 70
0
  3
Solid line
 72
65
 73
0
 40
0.0
  0
LTYPE
  2
CHAINED
 70
0
  3
Chained line
 72
65
 73
4
 40
24.000000
 49
15.000000
 49
-3.000000
 49
3.000000
 49
-3.000000
  0
LTYPE
  2
Dashed
 70
0
  3
Dashed line
 72
65
 73
2
 40
10.000000
 49
5.000000
 49
-5.000000
  0
ENDTAB
  0
TABLE
  2
LAYER
 70
2
  0
ENDTAB
  0
ENDSEC
  0
SECTION
  2
ENTITIES
  0
ARC
  8
0
 10
77.112274
 20
422.418320
 30
0.000000
 40
4.500372
 50
359.461666
 51
359.476976
  0
ARC
  8
0
 10
77.112274
 20
422.418320
 30
0.000000
 40
4.500372
 50
359.476974
 51
6.976665
  0
ARC
  8
0
 10
77.112293
 20
422.418322
 30
0.000000
 40
4.500353
 50
6.976663
 51
14.476374
  0
ARC
  8
0
 10
77.112329
 20
422.418332
 30
0.000000
 40
4.500317
 50
14.476372
 51
21.976125
  0
ARC
  8
0
 10
77.112377
 20
422.418351
 30
0.000000
 40
4.500265
 50
21.976123
 51
29.475933
  0
ARC
  8
0
 10
77.112432
 20
422.418382
 30
0.000000
 40
4.500201
 50
29.475932
 51
36.975813
  0
ARC
  8
0
 10
77.112489
 20
422.418425
 30
0.000000
 40
4.500130
 50
36.975812
 51
44.475771
  0
ARC
  8
0
 10
77.112541
 20
422.418476
 30
0.000000
 40
4.500057
 50
44.475771
 51
51.975812
  0
ARC
  8
0
 10
77.112585
 20
422.418532
 30
0.000000
 40
4.499986
 50
51.975813
 51
59.475932
  0
ARC
  8
0
 10
77.112617
 20
422.418587
 30
0.000000
 40
4.499923
 50
59.475933
 51
66.976123
  0
ARC
  8
0
 10
77.112637
 20
422.418634
 30
0.000000
 40
4.499871
 50
66.976125
 51
74.476372
  0
ARC
  8
0
 10
77.112647
 20
422.418670
 30
0.000000
 40
4.499834
 50
74.476374
 51
81.976663
  0
ARC
  8
0
 10
77.112650
 20
422.418689
 30
0.000000
 40
4.499815
 50
81.976665
 51
89.476974
  0
ARC
  8
0
 10
77.112650
 20
422.418689
 30
0.000000
 40
4.499815
 50
89.476976
 51
96.977286
  0
ARC
  8
0
 10
77.112653
 20
422.418670
 30
0.000000
 40
4.499834
 50
96.977288
 51
104.477576
  0
ARC
  8
0
 10
77.112662
 20
422.418634
 30
0.000000
 40
4.499871
 50
104.477578
 51
111.977826
  0
ARC
  8
0
 10
77.112681
 20
422.418586
 30
0.000000
 40
4.499923
 50
111.977827
 51
119.478017
  0
ARC
  8
0
 10
77.112713
 20
422.418531
 30
0.000000
 40
4.499986
 50
119.478018
 51
126.978138
  0
ARC
  8
0
 10
77.112755
 20
422.418474
 30
0.000000
 40
4.500057
 50
126.978138
 51
134.478179
  0
ARC
  8
0
 10
77.112807
 20
422.418422
 30
0.000000
 40
4.500130
 50
134.478179
 51
141.978138
  0
ARC
  8
0
 10
77.112862
 20
422.418378
 30
0.000000
 40
4.500201
 50
141.978138
 51
149.478018
  0
ARC
  8
0
 10
77.112917
 20
422.418346
 30
0.000000
 40
4.500265
 50
149.478017
 51
156.977827
  0
ARC
  8
0
 10
77.112965
 20
422.418326
 30
0.000000
 40
4.500317
 50
156.977826
 51
164.477578
  0
ARC
  8
0
 10
77.113000
 20
422.418316
 30
0.000000
 40
4.500353
 50
164.477576
 51
171.977288
  0
ARC
  8
0
 10
77.113019
 20
422.418313
 30
0.000000
 40
4.500372
 50
171.977286
 51
179.476976
  0
ARC
  8
0
 10
77.113019
 20
422.418313
 30
0.000000
 40
4.500372
 50
179.476974
 51
186.976665
  0
ARC
  8
0
 10
77.113000
 20
422.418310
 30
0.000000
 40
4.500353
 50
186.976663
 51
194.476374
  0
ARC
  8
0
 10
77.112965
 20
422.418301
 30
0.000000
 40
4.500317
 50
194.476372
 51
201.976125
  0
ARC
  8
0
 10
77.112917
 20
422.418282
 30
0.000000
 40
4.500265
 50
201.976123
 51
209.475933
  0
ARC
  8
0
 10
77.112861
 20
422.418250
 30
0.000000
 40
4.500201
 50
209.475932
 51
216.975813
  0
ARC
  8
0
 10
77.112805
 20
422.418208
 30
0.000000
 40
4.500130
 50
216.975812
 51
224.475771
  0
ARC
  8
0
 10
77.112752
 20
422.418156
 30
0.000000
 40
4.500057
 50
224.475771
 51
231.975812
  0
ARC
  8
0
 10
77.112709
 20
422.418101
 30
0.000000
 40
4.499986
 50
231.975813
 51
239.475932
  0
ARC
  8
0
 10
77.112676
 20
422.418046
 30
0.000000
 40
4.499923
 50
239.475933
 51
246.976123
  0
ARC
  8
0
 10
77.112656
 20
422.417998
 30
0.000000
 40
4.499871
 50
246.976125
 51
254.476372
  0
ARC
  8
0
 10
77.112646
 20
422.417963
 30
0.000000
 40
4.499834
 50
254.476374
 51
261.976663
  0
ARC
  8
0
 10
77.112643
 20
422.417944
 30
0.000000
 40
4.499815
 50
261.976665
 51
269.476974
  0
ARC
  8
0
 10
77.112643
 20
422.417944
 30
0.000000
 40
4.499815
 50
269.476976
 51
276.977286
  0
ARC
  8
0
 10
77.112641
 20
422.417963
 30
0.000000
 40
4.499834
 50
276.977288
 51
284.477576
  0
ARC
  8
0
 10
77.112631
 20
422.417998
 30
0.000000
 40
4.499871
 50
284.477578
 51
291.977826
  0
ARC
  8
0
 10
77.112612
 20
422.418046
 30
0.000000
 40
4.499923
 50
291.977827
 51
299.478017
  0
ARC
  8
0
 10
77.112581
 20
422.418102
 30
0.000000
 40
4.499986
 50
299.478018
 51
306.978138
  0
ARC
  8
0
 10
77.112538
 20
422.418158
 30
0.000000
 40
4.500057
 50
306.978138
 51
314.478179
  0
ARC
  8
0
 10
77.112487
 20
422.418211
 30
0.000000
 40
4.500130
 50
314.478179
 51
321.978138
  0
ARC
  8
0
 10
77.112431
 20
422.418254
 30
0.000000
 40
4.500201
 50
321.978138
 51
329.478018
  0
ARC
  8
0
 10
77.112376
 20
422.418287
 30
0.000000
 40
4.500265
 50
329.478017
 51
336.977827
  0
ARC
  8
0
 10
77.112329
 20
422.418307
 30
0.000000
 40
4.500317
 50
336.977826
 51
344.477578
  0
ARC
  8
0
 10
77.112293
 20
422.418317
 30
0.000000
 40
4.500353
 50
344.477576
 51
351.977288
  0
ARC
  8
0
 10
77.112274
 20
422.418320
 30
0.000000
 40
4.500372
 50
351.977286
 51
359.461666
  0
ARC
  8
0
 10
10.043834
 20
422.418320
 30
0.000000
 40
4.500372
 50
180.539057
 51
188.022714
  0
ARC
  8
0
 10
10.043815
 20
422.418317
 30
0.000000
 40
4.500353
 50
188.022712
 51
195.522424
  0
ARC
  8
0
 10
10.043780
 20
422.418307
 30
0.000000
 40
4.500317
 50
195.522422
 51
203.022174
  0
ARC
  8
0
 10
10.043732
 20
422.418287
 30
0.000000
 40
4.500265
 50
203.022173
 51
210.521983
  0
ARC
  8
0
 10
10.043678
 20
422.418254
 30
0.000000
 40
4.500201
 50
210.521982
 51
218.021862
  0
ARC
  8
0
 10
10.043622
 20
422.418211
 30
0.000000
 40
4.500130
 50
218.021862
 51
225.521821
  0
ARC
  8
0
 10
10.043571
 20
422.418158
 30
0.000000
 40
4.500057
 50
225.521821
 51
233.021862
  0
ARC
  8
0
 10
10.043528
 20
422.418102
 30
0.000000
 40
4.499986
 50
233.021862
 51
240.521982
  0
ARC
  8
0
 10
10.043497
 20
422.418046
 30
0.000000
 40
4.499923
 50
240.521983
 51
248.022173
  0
ARC
  8
0
 10
10.043477
 20
422.417998
 30
0.000000
 40
4.499871
 50
248.022174
 51
255.522422
  0
ARC
  8
0
 10
10.043468
 20
422.417963
 30
0.000000
 40
4.499834
 50
255.522424
 51
263.022712
  0
ARC
  8
0
 10
10.043465
 20
422.417944
 30
0.000000
 40
4.499815
 50
263.022714
 51
270.523024
  0
ARC
  8
0
 10
10.043465
 20
422.417944
 30
0.000000
 40
4.499815
 50
270.523026
 51
278.023335
  0
ARC
  8
0
 10
10.043462
 20
422.417963
 30
0.000000
 40
4.499834
 50
278.023337
 51
285.523626
  0
ARC
  8
0
 10
10.043452
 20
422.417998
 30
0.000000
 40
4.499871
 50
285.523628
 51
293.023875
  0
ARC
  8
0
 10
10.043432
 20
422.418046
 30
0.000000
 40
4.499923
 50
293.023877
 51
300.524067
  0
ARC
  8
0
 10
10.043400
 20
422.418101
 30
0.000000
 40
4.499986
 50
300.524068
 51
308.024187
  0
ARC
  8
0
 10
10.043356
 20
422.418156
 30
0.000000
 40
4.500057
 50
308.024188
 51
315.524229
  0
ARC
  8
0
 10
10.043304
 20
422.418208
 30
0.000000
 40
4.500130
 50
315.524229
 51
323.024188
  0
ARC
  8
0
 10
10.043247
 20
422.418250
 30
0.000000
 40
4.500201
 50
323.024187
 51
330.524068
  0
ARC
  8
0
 10
10.043192
 20
422.418282
 30
0.000000
 40
4.500265
 50
330.524067
 51
338.023877
  0
ARC
  8
0
 10
10.043144
 20
422.418301
 30
0.000000
 40
4.500317
 50
338.023875
 51
345.523628
  0
ARC
  8
0
 10
10.043109
 20
422.418310
 30
0.000000
 40
4.500353
 50
345.523626
 51
353.023337
  0
ARC
  8
0
 10
10.043090
 20
422.418313
 30
0.000000
 40
4.500372
 50
353.023335
 51
0.523026
  0
ARC
  8
0
 10
10.043090
 20
422.418313
 30
0.000000
 40
4.500372
 50
0.523024
 51
8.022714
  0
ARC
  8
0
 10
10.043108
 20
422.418316
 30
0.000000
 40
4.500353
 50
8.022712
 51
15.522424
  0
ARC
  8
0
 10
10.043144
 20
422.418326
 30
0.000000
 40
4.500317
 50
15.522422
 51
23.022174
  0
ARC
  8
0
 10
10.043191
 20
422.418346
 30
0.000000
 40
4.500265
 50
23.022173
 51
30.521983
  0
ARC
  8
0
 10
10.043246
 20
422.418378
 30
0.000000
 40
4.500201
 50
30.521982
 51
38.021862
  0
ARC
  8
0
 10
10.043302
 20
422.418422
 30
0.000000
 40
4.500130
 50
38.021862
 51
45.521821
  0
ARC
  8
0
 10
10.043353
 20
422.418474
 30
0.000000
 40
4.500057
 50
45.521821
 51
53.021862
  0
ARC
  8
0
 10
10.043396
 20
422.418531
 30
0.000000
 40
4.499986
 50
53.021862
 51
60.521982
  0
ARC
  8
0
 10
10.043427
 20
422.418586
 30
0.000000
 40
4.499923
 50
60.521983
 51
68.022173
  0
ARC
  8
0
 10
10.043447
 20
422.418634
 30
0.000000
 40
4.499871
 50
68.022174
 51
75.522422
  0
ARC
  8
0
 10
10.043456
 20
422.418670
 30
0.000000
 40
4.499834
 50
75.522424
 51
83.022712
  0
ARC
  8
0
 10
10.043458
 20
422.418689
 30
0.000000
 40
4.499815
 50
83.022714
 51
90.523024
  0
ARC
  8
0
 10
10.043459
 20
422.418689
 30
0.000000
 40
4.499815
 50
90.523026
 51
98.023335
  0
ARC
  8
0
 10
10.043461
 20
422.418670
 30
0.000000
 40
4.499834
 50
98.023337
 51
105.523626
  0
ARC
  8
0
 10
10.043471
 20
422.418634
 30
0.000000
 40
4.499871
 50
105.523628
 51
113.023875
  0
ARC
  8
0
 10
10.043492
 20
422.418587
 30
0.000000
 40
4.499923
 50
113.023877
 51
120.524067
  0
ARC
  8
0
 10
10.043524
 20
422.418532
 30
0.000000
 40
4.499986
 50
120.524068
 51
128.024187
  0
ARC
  8
0
 10
10.043568
 20
422.418476
 30
0.000000
 40
4.500057
 50
128.024188
 51
135.524229
  0
ARC
  8
0
 10
10.043620
 20
422.418425
 30
0.000000
 40
4.500130
 50
135.524229
 51
143.024188
  0
ARC
  8
0
 10
10.043677
 20
422.418382
 30
0.000000
 40
4.500201
 50
143.024187
 51
150.524068
  0
ARC
  8
0
 10
10.043732
 20
422.418351
 30
0.000000
 40
4.500265
 50
150.524067
 51
158.023877
  0
ARC
  8
0
 10
10.043780
 20
422.418332
 30
0.000000
 40
4.500317
 50
158.023875
 51
165.523628
  0
ARC
  8
0
 10
10.043815
 20
422.418322
 30
0.000000
 40
4.500353
 50
165.523626
 51
173.023337
  0
ARC
  8
0
 10
10.043834
 20
422.418320
 30
0.000000
 40
4.500372
 50
173.023335
 51
180.523026
  0
ARC
  8
0
 10
10.043834
 20
422.418320
 30
0.000000
 40
4.500372
 50
180.523024
 51
180.539057
  0
ARC
  8
0
 10
13.560827
 20
37.153096
 30
0.000000
 40
4.500372
 50
180.539057
 51
188.022714
  0
ARC
  8
0
 10
13.560808
 20
37.153093
 30
0.000000
 40
4.500353
 50
188.022712
 51
195.522424
  0
ARC
  8
0
 10
13.560773
 20
37.153083
 30
0.000000
 40
4.500317
 50
195.522422
 51
203.022174
  0
ARC
  8
0
 10
13.560725
 20
37.153062
 30
0.000000
 40
4.500265
 50
203.022173
 51
210.521983
  0
ARC
  8
0
 10
13.560671
 20
37.153030
 30
0.000000
 40
4.500201
 50
210.521982
 51
218.021862
  0
ARC
  8
0
 10
13.560615
 20
37.152986
 30
0.000000
 40
4.500130
 50
218.021862
 51
225.521821
  0
ARC
  8
0
 10
13.560563
 20
37.152934
 30
0.000000
 40
4.500057
 50
225.521821
 51
233.021862
  0
ARC
  8
0
 10
13.560521
 20
37.152878
 30
0.000000
 40
4.499986
 50
233.021862
 51
240.521982
  0
ARC
  8
0
 10
13.560489
 20
37.152822
 30
0.000000
 40
4.499923
 50
240.521983
 51
248.022173
  0
ARC
  8
0
 10
13.560470
 20
37.152774
 30
0.000000
 40
4.499871
 50
248.022174
 51
255.522422
  0
ARC
  8
0
 10
13.560461
 20
37.152739
 30
0.000000
 40
4.499834
 50
255.522424
 51
263.022712
  0
ARC
  8
0
 10
13.560458
 20
37.152720
 30
0.000000
 40
4.499815
 50
263.022714
 51
270.523024
  0
ARC
  8
0
 10
13.560458
 20
37.152720
 30
0.000000
 40
4.499815
 50
270.523026
 51
278.023335
  0
ARC
  8
0
 10
13.560455
 20
37.152739
 30
0.000000
 40
4.499834
 50
278.023337
 51
285.523626
  0
ARC
  8
0
 10
13.560445
 20
37.152774
 30
0.000000
 40
4.499871
 50
285.523628
 51
293.023875
  0
ARC
  8
0
 10
13.560425
 20
37.152822
 30
0.000000
 40
4.499923
 50
293.023877
 51
300.524067
  0
ARC
  8
0
 10
13.560393
 20
37.152876
 30
0.000000
 40
4.499986
 50
300.524068
 51
308.024187
  0
ARC
  8
0
 10
13.560349
 20
37.152932
 30
0.000000
 40
4.500057
 50
308.024188
 51
315.524229
  0
ARC
  8
0
 10
13.560297
 20
37.152984
 30
0.000000
 40
4.500130
 50
315.524229
 51
323.024188
  0
ARC
  8
0
 10
13.560240
 20
37.153026
 30
0.000000
 40
4.500201
 50
323.024187
 51
330.524068
  0
ARC
  8
0
 10
13.560185
 20
37.153058
 30
0.000000
 40
4.500265
 50
330.524067
 51
338.023877
  0
ARC
  8
0
 10
13.560137
 20
37.153077
 30
0.000000
 40
4.500317
 50
338.023875
 51
345.523628
  0
ARC
  8
0
 10
13.560101
 20
37.153086
 30
0.000000
 40
4.500353
 50
345.523626
 51
353.023337
  0
ARC
  8
0
 10
13.560083
 20
37.153089
 30
0.000000
 40
4.500372
 50
353.023335
 51
0.523026
  0
ARC
  8
0
 10
13.560083
 20
37.153089
 30
0.000000
 40
4.500372
 50
0.523024
 51
8.022714
  0
ARC
  8
0
 10
13.560101
 20
37.153092
 30
0.000000
 40
4.500353
 50
8.022712
 51
15.522424
  0
ARC
  8
0
 10
13.560137
 20
37.153102
 30
0.000000
 40
4.500317
 50
15.522422
 51
23.022174
  0
ARC
  8
0
 10
13.560184
 20
37.153122
 30
0.000000
 40
4.500265
 50
23.022173
 51
30.521983
  0
ARC
  8
0
 10
13.560239
 20
37.153154
 30
0.000000
 40
4.500201
 50
30.521982
 51
38.021862
  0
ARC
  8
0
 10
13.560295
 20
37.153198
 30
0.000000
 40
4.500130
 50
38.021862
 51
45.521821
  0
ARC
  8
0
 10
13.560346
 20
37.153250
 30
0.000000
 40
4.500057
 50
45.521821
 51
53.021862
  0
ARC
  8
0
 10
13.560389
 20
37.153307
 30
0.000000
 40
4.499986
 50
53.021862
 51
60.521982
  0
ARC
  8
0
 10
13.560420
 20
37.153362
 30
0.000000
 40
4.499923
 50
60.521983
 51
68.022173
  0
ARC
  8
0
 10
13.560439
 20
37.153410
 30
0.000000
 40
4.499871
 50
68.022174
 51
75.522422
  0
ARC
  8
0
 10
13.560449
 20
37.153446
 30
0.000000
 40
4.499834
 50
75.522424
 51
83.022712
  0
ARC
  8
0
 10
13.560451
 20
37.153464
 30
0.000000
 40
4.499815
 50
83.022714
 51
90.523024
  0
ARC
  8
0
 10
13.560451
 20
37.153464
 30
0.000000
 40
4.499815
 50
90.523026
 51
98.023335
  0
ARC
  8
0
 10
13.560454
 20
37.153446
 30
0.000000
 40
4.499834
 50
98.023337
 51
105.523626
  0
ARC
  8
0
 10
13.560464
 20
37.153410
 30
0.000000
 40
4.499871
 50
105.523628
 51
113.023875
  0
ARC
  8
0
 10
13.560485
 20
37.153363
 30
0.000000
 40
4.499923
 50
113.023877
 51
120.524067
  0
ARC
  8
0
 10
13.560517
 20
37.153308
 30
0.000000
 40
4.499986
 50
120.524068
 51
128.024187
  0
ARC
  8
0
 10
13.560560
 20
37.153252
 30
0.000000
 40
4.500057
 50
128.024188
 51
135.524229
  0
ARC
  8
0
 10
13.560613
 20
37.153201
 30
0.000000
 40
4.500130
 50
135.524229
 51
143.024188
  0
ARC
  8
0
 10
13.560669
 20
37.153158
 30
0.000000
 40
4.500201
 50
143.024187
 51
150.524068
  0
ARC
  8
0
 10
13.560725
 20
37.153127
 30
0.000000
 40
4.500265
 50
150.524067
 51
158.023877
  0
ARC
  8
0
 10
13.560773
 20
37.153107
 30
0.000000
 40
4.500317
 50
158.023875
 51
165.523628
  0
ARC
  8
0
 10
13.560808
 20
37.153098
 30
0.000000
 40
4.500353
 50
165.523626
 51
173.023337
  0
ARC
  8
0
 10
13.560827
 20
37.153096
 30
0.000000
 40
4.500372
 50
173.023335
 51
180.523026
  0
ARC
  8
0
 10
13.560827
 20
37.153096
 30
0.000000
 40
4.500372
 50
180.523024
 51
180.539057
  0
ARC
  8
0
 10
73.595282
 20
37.153096
 30
0.000000
 40
4.500372
 50
359.460943
 51
359.476976
  0
ARC
  8
0
 10
73.595282
 20
37.153096
 30
0.000000
 40
4.500372
 50
359.476974
 51
6.976665
  0
ARC
  8
0
 10
73.595300
 20
37.153098
 30
0.000000
 40
4.500353
 50
6.976663
 51
14.476374
  0
ARC
  8
0
 10
73.595336
 20
37.153107
 30
0.000000
 40
4.500317
 50
14.476372
 51
21.976125
  0
ARC
  8
0
 10
73.595384
 20
37.153127
 30
0.000000
 40
4.500265
 50
21.976123
 51
29.475933
  0
ARC
  8
0
 10
73.595439
 20
37.153158
 30
0.000000
 40
4.500201
 50
29.475932
 51
36.975813
  0
ARC
  8
0
 10
73.595496
 20
37.153201
 30
0.000000
 40
4.500130
 50
36.975812
 51
44.475771
  0
ARC
  8
0
 10
73.595548
 20
37.153252
 30
0.000000
 40
4.500057
 50
44.475771
 51
51.975812
  0
ARC
  8
0
 10
73.595592
 20
37.153308
 30
0.000000
 40
4.499986
 50
51.975813
 51
59.475932
  0
ARC
  8
0
 10
73.595624
 20
37.153363
 30
0.000000
 40
4.499923
 50
59.475933
 51
66.976123
  0
ARC
  8
0
 10
73.595644
 20
37.153410
 30
0.000000
 40
4.499871
 50
66.976125
 51
74.476372
  0
ARC
  8
0
 10
73.595654
 20
37.153446
 30
0.000000
 40
4.499834
 50
74.476374
 51
81.976663
  0
ARC
  8
0
 10
73.595657
 20
37.153464
 30
0.000000
 40
4.499815
 50
81.976665
 51
89.476974
  0
ARC
  8
0
 10
73.595657
 20
37.153464
 30
0.000000
 40
4.499815
 50
89.476976
 51
96.977286
  0
ARC
  8
0
 10
73.595660
 20
37.153446
 30
0.000000
 40
4.499834
 50
96.977288
 51
104.477576
  0
ARC
  8
0
 10
73.595669
 20
37.153410
 30
0.000000
 40
4.499871
 50
104.477578
 51
111.977826
  0
ARC
  8
0
 10
73.595689
 20
37.153362
 30
0.000000
 40
4.499923
 50
111.977827
 51
119.478017
  0
ARC
  8
0
 10
73.595720
 20
37.153307
 30
0.000000
 40
4.499986
 50
119.478018
 51
126.978138
  0
ARC
  8
0
 10
73.595763
 20
37.153250
 30
0.000000
 40
4.500057
 50
126.978138
 51
134.478179
  0
ARC
  8
0
 10
73.595814
 20
37.153198
 30
0.000000
 40
4.500130
 50
134.478179
 51
141.978138
  0
ARC
  8
0
 10
73.595870
 20
37.153154
 30
0.000000
 40
4.500201
 50
141.978138
 51
149.478018
  0
ARC
  8
0
 10
73.595924
 20
37.153122
 30
0.000000
 40
4.500265
 50
149.478017
 51
156.977827
  0
ARC
  8
0
 10
73.595972
 20
37.153102
 30
0.000000
 40
4.500317
 50
156.977826
 51
164.477578
  0
ARC
  8
0
 10
73.596007
 20
37.153092
 30
0.000000
 40
4.500353
 50
164.477576
 51
171.977288
  0
ARC
  8
0
 10
73.596026
 20
37.153089
 30
0.000000
 40
4.500372
 50
171.977286
 51
179.476976
  0
ARC
  8
0
 10
73.596026
 20
37.153089
 30
0.000000
 40
4.500372
 50
179.476974
 51
186.976665
  0
ARC
  8
0
 10
73.596007
 20
37.153086
 30
0.000000
 40
4.500353
 50
186.976663
 51
194.476374
  0
ARC
  8
0
 10
73.595972
 20
37.153077
 30
0.000000
 40
4.500317
 50
194.476372
 51
201.976125
  0
ARC
  8
0
 10
73.595924
 20
37.153058
 30
0.000000
 40
4.500265
 50
201.976123
 51
209.475933
  0
ARC
  8
0
 10
73.595868
 20
37.153026
 30
0.000000
 40
4.500201
 50
209.475932
 51
216.975813
  0
ARC
  8
0
 10
73.595812
 20
37.152984
 30
0.000000
 40
4.500130
 50
216.975812
 51
224.475771
  0
ARC
  8
0
 10
73.595760
 20
37.152932
 30
0.000000
 40
4.500057
 50
224.475771
 51
231.975812
  0
ARC
  8
0
 10
73.595716
 20
37.152876
 30
0.000000
 40
4.499986
 50
231.975813
 51
239.475932
  0
ARC
  8
0
 10
73.595684
 20
37.152822
 30
0.000000
 40
4.499923
 50
239.475933
 51
246.976123
  0
ARC
  8
0
 10
73.595663
 20
37.152774
 30
0.000000
 40
4.499871
 50
246.976125
 51
254.476372
  0
ARC
  8
0
 10
73.595653
 20
37.152739
 30
0.000000
 40
4.499834
 50
254.476374
 51
261.976663
  0
ARC
  8
0
 10
73.595651
 20
37.152720
 30
0.000000
 40
4.499815
 50
261.976665
 51
269.476974
  0
ARC
  8
0
 10
73.595650
 20
37.152720
 30
0.000000
 40
4.499815
 50
269.476976
 51
276.977286
  0
ARC
  8
0
 10
73.595648
 20
37.152739
 30
0.000000
 40
4.499834
 50
276.977288
 51
284.477576
  0
ARC
  8
0
 10
73.595639
 20
37.152774
 30
0.000000
 40
4.499871
 50
284.477578
 51
291.977826
  0
ARC
  8
0
 10
73.595619
 20
37.152822
 30
0.000000
 40
4.499923
 50
291.977827
 51
299.478017
  0
ARC
  8
0
 10
73.595588
 20
37.152878
 30
0.000000
 40
4.499986
 50
299.478018
 51
306.978138
  0
ARC
  8
0
 10
73.595545
 20
37.152934
 30
0.000000
 40
4.500057
 50
306.978138
 51
314.478179
  0
ARC
  8
0
 10
73.595494
 20
37.152986
 30
0.000000
 40
4.500130
 50
314.478179
 51
321.978138
  0
ARC
  8
0
 10
73.595438
 20
37.153030
 30
0.000000
 40
4.500201
 50
321.978138
 51
329.478018
  0
ARC
  8
0
 10
73.595383
 20
37.153062
 30
0.000000
 40
4.500265
 50
329.478017
 51
336.977827
  0
ARC
  8
0
 10
73.595336
 20
37.153083
 30
0.000000
 40
4.500317
 50
336.977826
 51
344.477578
  0
ARC
  8
0
 10
73.595300
 20
37.153093
 30
0.000000
 40
4.500353
 50
344.477576
 51
351.977288
  0
ARC
  8
0
 10
73.595282
 20
37.153096
 30
0.000000
 40
4.500372
 50
351.977286
 51
359.460943
  0
LINE
  8
0
 10
22.374763
 20
2.761272
 30
0.0
 11
3.564979
 21
36.611841
 31
0.0
  0
LINE
  8
0
 10
3.564979
 20
36.611841
 30
0.0
 11
0.000000
 21
427.133661
 31
0.0
  0
LINE
  8
0
 10
0.000000
 20
427.133661
 30
0.0
 11
18.407390
 21
437.362959
 31
0.0
  0
LINE
  8
0
 10
18.407390
 20
437.362959
 30
0.0
 11
19.578117
 21
438.175731
 31
0.0
  0
LINE
  8
0
 10
19.578117
 20
438.175731
 30
0.0
 11
67.577992
 21
438.175731
 31
0.0
  0
LINE
  8
0
 10
67.577992
 20
438.175731
 30
0.0
 11
68.748719
 21
437.362959
 31
0.0
  0
LINE
  8
0
 10
68.748719
 20
437.362959
 30
0.0
 11
87.156109
 21
427.133661
 31
0.0
  0
LINE
  8
0
 10
87.156109
 20
427.133661
 30
0.0
 11
83.591130
 21
36.611841
 31
0.0
  0
LINE
  8
0
 10
83.591130
 20
36.611841
 30
0.0
 11
64.781345
 21
2.761272
 31
0.0
  0
LINE
  8
0
 10
64.781345
 20
2.761272
 30
0.0
 11
63.577992
 21
0.000000
 31
0.0
  0
LINE
  8
0
 10
63.577992
 20
0.000000
 30
0.0
 11
23.578117
 21
0.000000
 31
0.0
  0
LINE
  8
0
 10
23.578117
 20
0.000000
 30
0.0
 11
22.374763
 21
2.761272
 31
0.0
  0
ENDSEC
  0
EOF
